12/23/2005

AÑORALGIAS

Acordes
Añoralgias
A continuación os ofrecemos los acordes para guitarra de la obra Añoralgias enviados por Johnny Littlebang (Julián Luini).

El F#° (Fa sostenido disminuido) se puede hacer con la posición 20121X o bien con la posición 234242 (con cejilla en el 2° casillero). Si trae dificultades, puede reemplazarse por un F#7 o un B7/F#. O incluso omitirse.




Punteo de introducción:


(empieza sin acorde) A7 D Dsus4 D

1|----------------------------10----9-10-11-12---12--10--9--7--5--3--2------------
2|----7---8--7--10---9/10-----------------------------------------5--3------------
3|--7---9-----------10/11--11-------9-10-11-12---12--11--9--7--6------------------
4|--------------------------------------------------------------------------------
5|--------------------------------------------------------------------------------
6|--------------------------------------------------------------------------------



(sin acorde) A7 Am7 A7 Gm F A7 D
1|----------------------------------------------3-------1-------0-----------------
2|--------------------------------------------3-------1-------2-------------------
3|------------------------------------------3-------2-------0---------------------
4|---0-0--4-----2-----0-----------------------------------------------------------
5|-----------4-----2--------------------------------------0-----------------------
6|----------------------------------0-0-2-3-------1-------------------------------



A7 D A7 D
Esta zamba canto a mi tierra distante
D7 G D7 G
cálido pueblito de nuestro interior.
A7 (A7/B) (A7/C#) D
Tierra ardiente que inspira mi amor
F#° B7 Em
credosa, reseca, de sol calcinante.
A7 (A7/B) (A7/C#) D
Recordando esa tierra quemante
Gm F A7 D
resuena mi grito: ¡Qué calor!


A7 D A7 D
Como te recuerdo, mi lindo pueblito
D7 G D7 G
con tu aire húmedo y denso de día.
A7 (A7/B) (A7/C#) D
Noches cálidas de fantasía
F#° B7 Em
pobladas de magia, de encanto infinito.
A7 (A7/B) (A7/C#) D
Y el cantar de tu fresco arroyito
Gm F A7 D
salvo en los diez meses de la sequía.


F#7 Bm
Siempre fue muy calmo, mi pueblo adorado
F#7 Bm
salvo aquella vez que pasó el huracán.
A7 (A7/B) (A7/C#) D
Viejos pagos, ¡qué lejos están!
F#° B7 Em
Mi tierra querida, mi dulce poblado,
A7 (A7/B) (A7/C#) D
tengo miedo de que hayas cambiado
Gm F A7 D
después de la última erupción del volcán.


(Punteo de introducción)


A7 D A7 D
Tierra que hasta ayer mi niñez cobijabas
D7 G D7 G
siempre te recuerdo con el corazón.
A7 (A7/B) (A7/C#) D
Aunque aquel arroyito dulzón
F#° B7 Em
hoy sea un hirviente torrente de lava,
A7 (A7/B) (A7/C#) D
que por suerte a veces se apaga,
Gm F A7 D
cuando llega el tiempo de la inundación.


A7 D A7 D
Los hambrientos lobos, aullando estremecen
D7 G D7 G
cuando son mordidos por fieros mosquitos.
A7 (A7/B) (A7/C#) D
No se puede dormir por los gritos
F#° B7 Em
de miles de buitres que el cielo oscurecen.
A7 (A7/B) (A7/C#) D
Siempre algún terremoto aparece
Gm F A7 D
y al atardecer llueven meteoritos.


F#7 Bm
Y si a mi pueblito volver yo pudiera,
F#7 Bm
a mi viejo pueblo, al que no he regresado.
A7 (A7/B) (A7/C#) D
Si pudiera volver al poblado,
F#° B7 Em
que siempre me llama, que siempre me espera.
A7 (A7/B) (A7/C#) D
Si a mi pueblo volver yo pudiera
Gm F A7 D
no lo haría ni mamado.

1 comentario:

Al dijo...

En la cuarta estrofa de la cancion es "gredosa". El tono original de la cancion es Do (C).